999
DXF file: 41929.dxf
999
Pro/ENGINEER 2014500 by Parametric Technology Corporation
  0
SECTION
  2
HEADER
  9
$EXTMAX
 10
594.0
 20
420.0
 30
0.0
  9
$EXTMIN
 10
0.0
 20
0.0
 30
0.0
  9
$LIMMIN
 10
0.0
 20
0.0
  9
$LIMMAX
 10
594.0
 20
420.0
  9
$VIEWCTR
 10
297.0
 20
210.0
  9
$VIEWSIZE
 40
420.0
  9
$CLAYER
  8
0
  9
$LTSCALE
 40
32.67
  9
$CELTYPE
  6
BYLAYER
  9
$DIMSCALE
 40
1.0
  9
$DIMASZ
 40
2.5
  9
$DIMEXO
 40
0.0625
  9
$DIMDLI
 40
22.572
  9
$DIMEXE
 40
1.0
  9
$DIMCEN
 40
5.346
  9
$DIMLFAC
 40
1.0
  9
$DIMBLK
  1
_FILLED
  9
$DIMALT
 70
0
  9
$DIMALTF
 40
0.0393700787
  9
$DIMTXT
 40
3.5
  9
$AUNITS
 70
0
  9
$PDMODE
 70
3
  9
$PDSIZE
 40
0.3125
  9
$TILEMODE
 70
1
  0
ENDSEC
  0
SECTION
  2
TABLES
  0
TABLE
  2
LTYPE
 70
6
  0
LTYPE
  2
BYBLOCK
 70
0
  3

 72
65
 73
0
 40
0.0
  0
LTYPE
  2
BYLAYER
 70
0
  3

 72
65
 73
0
 40
0.0
  0
LTYPE
  2
CONTINUOUS
 70
64
  3
Solid line
 72
65
 73
0
 40
0.0
  0
LTYPE
  2
CENTER
 70
64
  3
____ _ ____ _ ____ _ ____ _ ____ _ ____ _ ____
 72
65
 73
4
 40
0.6
 49
0.375
 49
-0.075
 49
0.075
 49
-0.075
  0
LTYPE
  2
HIDDEN
 70
64
  3
- - - - - - - - - - - - - - - - - - - -
 72
65
 73
2
 40
0.2
 49
0.1
 49
-0.1
  0
LTYPE
  2
PHANTOM
 70
64
  3
_____ _ _ _____ _ _ _____ _ _ _____
 72
65
 73
6
 40
0.8
 49
0.45
 49
-0.05
 49
0.1
 49
-0.05
 49
0.1
 49
-0.05
  0
LTYPE
  2
DOT
 70
64
  3
. . . . . . . . . . . . . . . . . . . .
 72
65
 73
2
 40
0.2
 49
0.1
 49
-0.1
  0
LTYPE
  2
DASHED
 70
64
  3
- - - - - - - - - - - - - - - - - - - -
 72
65
 73
2
 40
0.2
 49
0.1
 49
-0.1
  0
ENDTAB
  0
TABLE
  2
LAYER
 70
36
  0
LAYER
  2
0
 70
0
 62
7
  6
CONTINUOUS
  0
LAYER
  2
DEFAULT_1
 70
0
 62
7
  6
CENTER
  0
LAYER
  2
DEFAULT_2
 70
0
 62
8
  6
HIDDEN
  0
LAYER
  2
DEFAULT_3
 70
0
 62
7
  6
PHANTOM
  0
LAYER
  2
01___PRT_ALL_DTM_PLN
 70
0
 62
7
  6
CONTINUOUS
  0
LAYER
  2
01___PRT_DEF_DTM_PLN
 70
0
 62
7
  6
CONTINUOUS
  0
LAYER
  2
02___PRT_ALL_AXES
 70
0
 62
7
  6
CONTINUOUS
  0
LAYER
  2
03___PRT_ALL_CURVES
 70
0
 62
7
  6
CONTINUOUS
  0
LAYER
  2
04___PRT_ALL_DTM_PNT
 70
0
 62
7
  6
CONTINUOUS
  0
LAYER
  2
05___PRT_ALL_DTM_CSYS
 70
0
 62
7
  6
CONTINUOUS
  0
LAYER
  2
05___PRT_DEF_DTM_CSYS
 70
0
 62
7
  6
CONTINUOUS
  0
LAYER
  2
06___PRT_ALL_SURFS
 70
0
 62
7
  6
CONTINUOUS
  0
ENDTAB
  0
TABLE
  2
STYLE
 70
1
  0
STYLE
  2
STANDARD
 70
0
 40
0.0
 41
1.0
 50
0.0
 71
0
 42
0.2
  3
arial.ttf
  4

  0
STYLE
  2
TEXTSTYLE_1
 70
0
 40
0.0
 41
0.8
 50
0.0
 71
0
 42
0.2
  3
gdt
  4

  0
ENDTAB
  0
ENDSEC
  0
SECTION
  2
BLOCKS
  0
ENDSEC
  0
SECTION
  2
ENTITIES
  0
LINE
  8
0
 62
7
  6
CONTINUOUS
 10
349.1855071659
 20
-388.9574799879
 11
95.1855071659
 21
-388.9574799879
  0
LINE
  8
0
 62
7
  6
CONTINUOUS
 10
114.2355071659
 20
-96.8574799879
 11
330.1355071659
 21
-96.8574799879
  0
LINE
  8
0
 62
7
  6
CONTINUOUS
 10
330.1355071659
 20
5.1425200121
 11
114.2355071659
 21
5.1425200121
  0
LINE
  8
0
 62
7
  6
CONTINUOUS
 10
95.1855071659
 20
-388.9574799879
 11
95.1855071659
 21
804.8425200121
  0
LINE
  8
0
 62
7
  6
CONTINUOUS
 10
109.4655071659
 20
764.5825200121
 11
109.4655071659
 21
577.2525200121
  0
LINE
  8
0
 62
7
  6
CONTINUOUS
 10
114.2355071659
 20
5.1425200121
 11
114.2355071659
 21
-96.8574799879
  0
LINE
  8
0
 62
7
  6
CONTINUOUS
 10
330.1355071659
 20
-96.8574799879
 11
330.1355071659
 21
5.1425200121
  0
LINE
  8
0
 62
7
  6
CONTINUOUS
 10
334.8955071659
 20
577.2525200121
 11
334.8955071659
 21
764.5825200121
  0
LINE
  8
0
 62
7
  6
CONTINUOUS
 10
349.1855071659
 20
804.8425200121
 11
349.1855071659
 21
-388.9574799879
  0
LINE
  8
0
 62
7
  6
CONTINUOUS
 10
109.4655071659
 20
577.2525200121
 11
334.8955071659
 21
577.2525200121
  0
LINE
  8
0
 62
7
  6
CONTINUOUS
 10
334.8955071659
 20
764.5825200121
 11
109.4655071659
 21
764.5825200121
  0
LINE
  8
0
 62
7
  6
CONTINUOUS
 10
95.1855071659
 20
804.8425200121
 11
349.1855071659
 21
804.8425200121
  0
CIRCLE
  8
02___PRT_ALL_AXES
 62
7
  6
CONTINUOUS
 10
311.0855071659
 20
782.7425200121
 40
3.5
  0
CIRCLE
  8
02___PRT_ALL_AXES
 62
7
  6
CONTINUOUS
 10
311.0855071659
 20
566.8425200121
 40
3.5
  0
CIRCLE
  8
02___PRT_ALL_AXES
 62
7
  6
CONTINUOUS
 10
311.0855071659
 20
-134.9574799879
 40
3.5
  0
CIRCLE
  8
02___PRT_ALL_AXES
 62
7
  6
CONTINUOUS
 10
133.2855071659
 20
782.7425200121
 40
3.5
  0
CIRCLE
  8
02___PRT_ALL_AXES
 62
7
  6
CONTINUOUS
 10
133.2855071659
 20
566.8425200121
 40
3.5
  0
CIRCLE
  8
02___PRT_ALL_AXES
 62
7
  6
CONTINUOUS
 10
133.2855071659
 20
-134.9574799879
 40
3.5
  0
ENDSEC
  0
EOF
