999
DXF file: 41926.dxf
999
Pro/ENGINEER 2014500 by Parametric Technology Corporation
  0
SECTION
  2
HEADER
  9
$EXTMAX
 10
594.0
 20
420.0
 30
0.0
  9
$EXTMIN
 10
0.0
 20
0.0
 30
0.0
  9
$LIMMIN
 10
0.0
 20
0.0
  9
$LIMMAX
 10
594.0
 20
420.0
  9
$VIEWCTR
 10
297.0
 20
210.0
  9
$VIEWSIZE
 40
420.0
  9
$CLAYER
  8
0
  9
$LTSCALE
 40
32.67
  9
$CELTYPE
  6
BYLAYER
  9
$DIMSCALE
 40
1.0
  9
$DIMASZ
 40
2.5
  9
$DIMEXO
 40
0.0625
  9
$DIMDLI
 40
22.572
  9
$DIMEXE
 40
1.0
  9
$DIMCEN
 40
5.346
  9
$DIMLFAC
 40
1.0
  9
$DIMBLK
  1
_FILLED
  9
$DIMALT
 70
0
  9
$DIMALTF
 40
0.0393700787
  9
$DIMTXT
 40
3.5
  9
$AUNITS
 70
0
  9
$PDMODE
 70
3
  9
$PDSIZE
 40
0.3125
  9
$TILEMODE
 70
1
  0
ENDSEC
  0
SECTION
  2
TABLES
  0
TABLE
  2
LTYPE
 70
6
  0
LTYPE
  2
BYBLOCK
 70
0
  3

 72
65
 73
0
 40
0.0
  0
LTYPE
  2
BYLAYER
 70
0
  3

 72
65
 73
0
 40
0.0
  0
LTYPE
  2
CONTINUOUS
 70
64
  3
Solid line
 72
65
 73
0
 40
0.0
  0
LTYPE
  2
CENTER
 70
64
  3
____ _ ____ _ ____ _ ____ _ ____ _ ____ _ ____
 72
65
 73
4
 40
0.6
 49
0.375
 49
-0.075
 49
0.075
 49
-0.075
  0
LTYPE
  2
HIDDEN
 70
64
  3
- - - - - - - - - - - - - - - - - - - -
 72
65
 73
2
 40
0.2
 49
0.1
 49
-0.1
  0
LTYPE
  2
PHANTOM
 70
64
  3
_____ _ _ _____ _ _ _____ _ _ _____
 72
65
 73
6
 40
0.8
 49
0.45
 49
-0.05
 49
0.1
 49
-0.05
 49
0.1
 49
-0.05
  0
LTYPE
  2
DOT
 70
64
  3
. . . . . . . . . . . . . . . . . . . .
 72
65
 73
2
 40
0.2
 49
0.1
 49
-0.1
  0
LTYPE
  2
DASHED
 70
64
  3
- - - - - - - - - - - - - - - - - - - -
 72
65
 73
2
 40
0.2
 49
0.1
 49
-0.1
  0
ENDTAB
  0
TABLE
  2
LAYER
 70
36
  0
LAYER
  2
0
 70
0
 62
7
  6
CONTINUOUS
  0
LAYER
  2
DEFAULT_1
 70
0
 62
7
  6
CENTER
  0
LAYER
  2
DEFAULT_2
 70
0
 62
8
  6
HIDDEN
  0
LAYER
  2
DEFAULT_3
 70
0
 62
7
  6
PHANTOM
  0
LAYER
  2
01___PRT_ALL_DTM_PLN
 70
0
 62
7
  6
CONTINUOUS
  0
LAYER
  2
01___PRT_DEF_DTM_PLN
 70
0
 62
7
  6
CONTINUOUS
  0
LAYER
  2
02___PRT_ALL_AXES
 70
0
 62
7
  6
CONTINUOUS
  0
LAYER
  2
03___PRT_ALL_CURVES
 70
0
 62
7
  6
CONTINUOUS
  0
LAYER
  2
04___PRT_ALL_DTM_PNT
 70
0
 62
7
  6
CONTINUOUS
  0
LAYER
  2
05___PRT_ALL_DTM_CSYS
 70
0
 62
7
  6
CONTINUOUS
  0
LAYER
  2
05___PRT_DEF_DTM_CSYS
 70
0
 62
7
  6
CONTINUOUS
  0
LAYER
  2
06___PRT_ALL_SURFS
 70
0
 62
7
  6
CONTINUOUS
  0
ENDTAB
  0
TABLE
  2
STYLE
 70
1
  0
STYLE
  2
STANDARD
 70
0
 40
0.0
 41
1.0
 50
0.0
 71
0
 42
0.2
  3
arial.ttf
  4

  0
STYLE
  2
TEXTSTYLE_1
 70
0
 40
0.0
 41
0.8
 50
0.0
 71
0
 42
0.2
  3
gdt
  4

  0
ENDTAB
  0
ENDSEC
  0
SECTION
  2
BLOCKS
  0
ENDSEC
  0
SECTION
  2
ENTITIES
  0
TEXT
  8
0
 62
2
  6
CONTINUOUS
 10
202.0959873196
 20
-178.9233647487
  7
STANDARD
 40
3.5
  1
SCALE  
 41
1.0
 72
2
 11
220.8060244943
 21
-178.9233647487
  0
TEXT
  8
0
 62
2
  6
CONTINUOUS
 10
220.8060244943
 20
-178.9233647487
  7
STANDARD
 40
3.5
  1
1.000
 41
1.0
 72
2
 11
233.0365077657
 21
-178.9233647487
  0
LINE
  8
0
 62
7
  6
CONTINUOUS
 10
106.0365077657
 20
-170.7033647487
 11
360.0365077657
 21
-170.7033647487
  0
LINE
  8
0
 62
7
  6
CONTINUOUS
 10
173.0665077657
 20
-161.1733647487
 11
293.0065077657
 21
-161.1733647487
  0
LINE
  8
0
 62
7
  6
CONTINUOUS
 10
119.0930471577
 20
-107.1999041408
 11
173.0665077657
 21
-161.1733647487
  0
LINE
  8
0
 62
7
  6
CONTINUOUS
 10
106.0365077657
 20
578.5966352513
 11
106.0365077657
 21
-170.7033647487
  0
LINE
  8
0
 62
7
  6
CONTINUOUS
 10
119.0930471577
 20
191.2566352513
 11
119.0930471577
 21
-107.1999041408
  0
LINE
  8
0
 62
7
  6
CONTINUOUS
 10
346.9799683737
 20
191.2566352513
 11
119.0930471577
 21
191.2566352513
  0
LINE
  8
0
 62
7
  6
CONTINUOUS
 10
346.9799683737
 20
-107.1999041408
 11
346.9799683737
 21
191.2566352513
  0
LINE
  8
0
 62
7
  6
CONTINUOUS
 10
360.0365077657
 20
-170.7033647487
 11
360.0365077657
 21
578.5966352513
  0
LINE
  8
0
 62
7
  6
CONTINUOUS
 10
293.0065077657
 20
-161.1733647487
 11
346.9799683737
 21
-107.1999041408
  0
LINE
  8
0
 62
7
  6
CONTINUOUS
 10
360.0365077657
 20
578.5966352513
 11
106.0365077657
 21
578.5966352513
  0
CIRCLE
  8
02___PRT_ALL_AXES
 62
7
  6
CONTINUOUS
 10
131.4365077657
 20
-145.3033647487
 40
4.0
  0
CIRCLE
  8
02___PRT_ALL_AXES
 62
7
  6
CONTINUOUS
 10
131.4365077657
 20
553.1966352513
 40
4.0
  0
CIRCLE
  8
02___PRT_ALL_AXES
 62
7
  6
CONTINUOUS
 10
334.6365077657
 20
-145.3033647487
 40
4.0
  0
CIRCLE
  8
02___PRT_ALL_AXES
 62
7
  6
CONTINUOUS
 10
334.6365077657
 20
553.1966352513
 40
4.0
  0
ENDSEC
  0
EOF
